Cifra Pra acordar - Fruto Sagrado

|--------------------------------|-----------------------------------|
|--------------------------------|-----------------------------------|
|--------------------------------|-----------------------------------|
|-----------5------3---2---------|------------5--------3--2--3-------|
|-----5------------------5-3-5---|-----5-----------------------------|
|-3-3---3-3---3-3----3---------3-|-3-3----3-3----3--3----------------|

G                                                    F
  TÁ NA HORA DE ACORDAR E VER QUE O PLANETA ESTÁ MORRENDO 
                 G
POR CAUSA DE NÓS    TÁ NA HORA DE ENFRENTAR
                           F      G        F 
TUDO AQUILO QUE AUMENTA O DÉBITO DA NOSSA TERRA
G                                 Em  
 ONDE ESTÃO NOSSOS GRANDES HOMENS,   ONDE ESTÃO SUAS GRANDES IDÉIAS
D# 
   PRÁ ONDE VAI TODO O NOSSO TRABALHO 
C
   QUAL O RESULTADO DAS NOSSSAS GUERRAS
G                               Em 
  ONDE ANDA O AMOR PELO PRÓXIMO,   E QUEM SÃO NOSSOS GRANDES AMIGOS
  D#
QUEM CUIDA DO ÍNDIO E DO HOMEM DO CAMPO
C                                               G  INT
  QUE MATA O ÍNDIO E DO HOMEM DO CAMPO, EU NÃO SEI

G                                                F 
 TÁ NA HORA DE APAGAR O PAVIO QUE FOI ACESSO A TEMPOS POR NOSSOS AVÓS
G                                              F
 TÁ NA HORA DE ELIMINAR O SISTEMA PARANÓICO HUMANO, AINDA HÁ TEMPO
G                            Em                              D#
 SERÁ QUE ESTAMOS VIRANDO ROBÔS, OU NÃO ESTAMOS BEM PROGRAMADOS
                              C                          G
PRÁ ONDE VAI TODA A NOSSA EMOÇÃO, O RACIONAL PERDEU A RAZÃO
                             Em                             D#
QUANDO FOI QUE AJOELHAMOS, QUANDO FOI QUE CHAMAMOS DEUS DE PAI 
                                C                     [ Em G ] 4x D C D
NA VERDADE NÃO SOMOS BONS FILHOS  NÃO SOMOS BONS FILHOS             

 D                             
VAMOS DEIXAR QUEM CRIOU ESTE MUNDO TÃO LINDO COMO ERA
    C/D                     D
CUIDAR DE TUDO PRÁ NÓS, CUIDAR DE TUDO PRÁ NÓS

VOCÊ VAI VER, ELE NÃO VAI DEIXAR A GENTE NA MÃO
          C/D                         D       
E VAI CUIDAR DE TUDO PRÁ NÓS, VAI CUIDAR DE TUDO PRÁ NÓS
 C/D D 4x C/D D           
            OH  OH ..... PRÁ ACORDAR

 D D/C G/B Gb/Bm D/A    C/D           D
|---------------------------|  |------------------10---|
|--7-----7--8--10--8--7-----|  |-10--8--8--7--8--------|
|-----7------------------7--|  |-----------------------|
|---------------------------|  |-----------------------|
|---------------------------|  |-----------------------|
|---------------------------|  |-----------------------|