Cifra Brasil - Fruto Sagrado

|------------------------------|---------------------------|-----------|
|------------------------------|---------------------------|--2--2-----|
|------------------------------|---------------------------|--0--0-----|
|------------------------------|---------------------------|-----------|
|-------0--3--0--------0--3--0-|-------0--3--0--------0--3-|-----------|
|-0--3-----------0--3----------|-0--3-----------0--3-------|-----------|

|------------------------------|----------------|----------------------|
|------------------------------|----------------|----------------------|
|------------------------------|----------------|-2--0-----------------|
|------------------------------|----------------|-------2--0--2—0------|
|-------0--3--0--------0--3--0-|-------0--3--0--|----------------------|
|-0--3-----------0--3----------|-0--3-----------|----------------------|

Am                                 G Am
   EM QUE PONTO NOSSO PAÍS CHEGOU! 
                                        G Am
ATÉ QUE PONTO A GENTE DEIXOU ELE CHEGAR...
Am                                         G Am
   NÃO ESTOU AQUI PRA APONTAR O DEDO, NÃO!  
                      D
NÃO ESTOU AQUI PRA DIZER QUEM É O CULPADO!

F                E              Am
 TEM QUE TER FÉ,  CORRER ATRÁS!   AÇÃO E REAÇÃO, AGITAR E AGIR...
F                E              Am
 TEM QUE TER FÉ,  CORRER ATRÁS!   AÇÃO E REAÇÃO, AGITAR E AGIR...
F                E              Dm        Em F            Em Dm
 TEM QUE TER FÉ,  CORRER ATRÁS!    ACREDITAR   NO CRIADOR!
                      F                       Am    (INT)
NÃO VOU PERDER A ESPERANÇA, NEM TUDO ESTÁ PERDIDO!

Am                                G  Am
  EM QUE PONTO NOSSO PAÍS CHEGOU! 
Am                                         G Am
  ATÉ QUE PONTO A GENTE DEIXOU ELE CHEGAR...
                                                G Am
TODO MUNDO RECLAMANDO, RECLAMANDO DE TODO MUNDO!
                      D
MAS NINGUÉM FAZ NADA,   NINGUÉM FAZ NADA POR NINGUÉM!  

CORO...

D#                           Dm                           D#
   DAR UM BASTA EM TUDO ISSO,   CONHECER A VERDADE QUE LIBERTA.
                             Dm                           D#
PONTO FINAL NESSA ESCRAVIDÃO,   CONHECER A VERDADE QUE LIBERTA.
                             Am
DAR UM BASTA EM TUDO ISSO,  STOP !!!