Tablatura: Meu mestre - Irmão Lazáro









1° parte

E----------------------------------------------------------------------------------------
B-------------5----8-------7----5----------------------------------------------------
G-----7-------------------------------7------------------------------------------------
D--7-----------------------------------------------------------------------------------
A---------------------------------------------------------------------------------------
E----------------------------------------------------------------------------------------

2° parte

E---------------------------------------------------------------------------------------
B------------------------------------------------------10-10-----------------------------
G------------------7-----7-----9--9----7-----9/11----------11/ 9---7-------7--7----
D--------7----9------9------------------------------------------------------9------------
A----------------------------------------------------------------------------------------
E-----------------------------------------------------------------------------------------

3° parte

E---------------------------------10-------10-------10--10--9--9------------------
B-----------------10---10/12-------12--------------------------------12--12-----10--10
G--------9/11--------------------------------------------------------------------------
D------------------------------------------------
A----------------------------------------------------------------------------------------
E-----------------------------------------------------------------------------------------

4° parte

E---------------------------------------------------------------------------------------
B----------------------------------------------------------------------------------10 10
G-------9----7-------7---6------------------------------------------7—9/11
D-------------------9-----------7----------------7--------7----7/9
A------------------------------------7-------9--------9--------------------------------
E-----------------------------------------------------------------------------------------


5° parte 5:21 minutos da musica

E-----------------12------------------------------------------------------
B-------------12-----15(pul of-)-12----12—
G-14bend(1 tom)-------------------14-----14bend(1 tom)-12-11-12-11
D------------------------------------------------------------------------------------------12-10
A-------------------------------------------------------------
E-----------------------------------------------------------------------------------------


Continuaçao do lick
5° parte
5:24 minutos da musica

E---------------------------------------------12----15 (bends)-14-15-14
B--------------------------------12-----15--------------------------------------15
G---------------12—12/14-----------------------------------------------
D-------12/14-----------------------------------------------------------
A-------------------------------------------------------------
E-----------------------------------------------------------------------------------------

Continuação
5° parte 5:28 minutos da musica

E--------------------------------------------
B--------------------------------------------15-----17/(bend)19( 3x)
G-------------------14--14-----14--16--------------------------
D-------14-14/16---------16-------------------------------------------------
A-------------------------------------------------------------
E-----------------------------------------------------------------------------------------